ISO-10303-21;
HEADER;
FILE_DESCRIPTION (( 'STEP AP214' ),
    '1' );
FILE_NAME ('TS-POINT.STEP',
    '2024-03-06T04:36:10',
    ( '' ),
    ( '' ),
    'SwSTEP 2.0',
    'SolidWorks 2020',
    '' );
FILE_SCHEMA (( 'AUTOMOTIVE_DESIGN' ));
ENDSEC;

DATA;
#1 = SURFACE_STYLE_USAGE ( .BOTH. , #82 ) ;
#2 = CLOSED_SHELL ( 'NONE', ( #180, #291, #173, #66, #251, #16, #56, #18, #156, #166 ) ) ;
#3 = PRESENTATION_LAYER_ASSIGNMENT (  '', '', ( #115 ) ) ;
#4 = ORIENTED_EDGE ( 'NONE', *, *, #325, .T. ) ;
#5 = CARTESIAN_POINT ( 'NONE',  ( 1.350000000000001643, 1.000000000000000000, -0.5000000000000004441 ) ) ;
#6 = EDGE_LOOP ( 'NONE', ( #235, #172, #25, #307 ) ) ;
#7 = CARTESIAN_POINT ( 'NONE',  ( -1.217095003755984672, 1.000000000000000000, -0.4072923638155558912 ) ) ;
#8 = VECTOR ( 'NONE', #74, 1000.000000000000000 ) ;
#9 = COLOUR_RGB ( '',1.000000000000000000, 1.000000000000000000, 1.000000000000000000 ) ;
#10 = DIRECTION ( 'NONE',  ( -0.000000000000000000, -1.000000000000000000, -0.000000000000000000 ) ) ;
#11 = EDGE_LOOP ( 'NONE', ( #107, #192, #322, #87 ) ) ;
#12 = CARTESIAN_POINT ( 'NONE',  ( 1.350000000000001643, 0.000000000000000000, 0.5000000000000004441 ) ) ;
#13 = PLANE ( 'NONE',  #327 ) ;
#14 = CARTESIAN_POINT ( 'NONE',  ( 1.217095003755986449, 1.000000000000000000, 0.4072923638155558912 ) ) ;
#15 = VECTOR ( 'NONE', #267, 1000.000000000000000 ) ;
#16 = ADVANCED_FACE ( 'NONE', ( #185 ), #297, .F. ) ;
#17 = FACE_OUTER_BOUND ( 'NONE', #230, .T. ) ;
#18 = ADVANCED_FACE ( 'NONE', ( #239 ), #13, .T. ) ;
#19 = LINE ( 'NONE', #302, #148 ) ;
#20 = APPLICATION_CONTEXT ( 'automotive_design' ) ;
#21 = EDGE_LOOP ( 'NONE', ( #209, #261, #55, #81 ) ) ;
#22 = ORIENTED_EDGE ( 'NONE', *, *, #213, .F. ) ;
#23 = VERTEX_POINT ( 'NONE', #188 ) ;
#24 = FACE_OUTER_BOUND ( 'NONE', #21, .T. ) ;
#25 = ORIENTED_EDGE ( 'NONE', *, *, #189, .F. ) ;
#26 = LINE ( 'NONE', #5, #200 ) ;
#27 = AXIS2_PLACEMENT_3D ( 'NONE', #289, #52, #177 ) ;
#28 = EDGE_LOOP ( 'NONE', ( #30, #127, #103, #238 ) ) ;
#29 = CARTESIAN_POINT ( 'NONE',  ( 1.217095003755986449, 1.000000000000000000, 0.4072923638155558912 ) ) ;
#30 = ORIENTED_EDGE ( 'NONE', *, *, #221, .T. ) ;
#31 = CARTESIAN_POINT ( 'NONE',  ( -1.350000000000000089, 1.000000000000000000, -0.5000000000000004441 ) ) ;
#32 = ORIENTED_EDGE ( 'NONE', *, *, #142, .T. ) ;
#33 = CARTESIAN_POINT ( 'NONE',  ( 1.217095003755986449, 1.000000000000000000, -0.4072923638155558912 ) ) ;
#34 = PLANE ( 'NONE',  #79 ) ;
#35 = VERTEX_POINT ( 'NONE', #271 ) ;
#36 = LINE ( 'NONE', #318, #201 ) ;
#37 = ORIENTED_EDGE ( 'NONE', *, *, #240, .F. ) ;
#38 = PRODUCT_DEFINITION_SHAPE ( 'NONE', 'NONE',  #61 ) ;
#39 = LINE ( 'NONE', #33, #154 ) ;
#40 = EDGE_CURVE ( 'NONE', #58, #218, #92, .T. ) ;
#41 = VERTEX_POINT ( 'NONE', #43 ) ;
#42 = AXIS2_PLACEMENT_3D ( 'NONE', #194, #334, #99 ) ;
#43 = CARTESIAN_POINT ( 'NONE',  ( 1.350000000000001643, 1.000000000000000000, 0.5000000000000004441 ) ) ;
#44 = DIRECTION ( 'NONE',  ( 0.000000000000000000, 0.000000000000000000, -1.000000000000000000 ) ) ;
#45 = APPLICATION_CONTEXT ( 'automotive_design' ) ;
#46 = FACE_BOUND ( 'NONE', #28, .T. ) ;
#47 = CARTESIAN_POINT ( 'NONE',  ( 1.217095003755986449, 0.000000000000000000, -0.4072923638155558912 ) ) ;
#48 = VECTOR ( 'NONE', #323, 1000.000000000000000 ) ;
#49 = LINE ( 'NONE', #144, #336 ) ;
#50 =( NAMED_UNIT ( * ) SI_UNIT ( $, .STERADIAN. ) SOLID_ANGLE_UNIT ( ) );
#51 = CARTESIAN_POINT ( 'NONE',  ( -1.217095003755984672, 0.000000000000000000, 0.4072923638155558912 ) ) ;
#52 = DIRECTION ( 'NONE',  ( 0.000000000000000000, -0.000000000000000000, 1.000000000000000000 ) ) ;
#53 = AXIS2_PLACEMENT_3D ( 'NONE', #119, #303, #72 ) ;
#54 = CARTESIAN_POINT ( 'NONE',  ( 0.000000000000000000, 1.000000000000000000, 0.000000000000000000 ) ) ;
#55 = ORIENTED_EDGE ( 'NONE', *, *, #40, .T. ) ;
#56 = ADVANCED_FACE ( 'NONE', ( #294 ), #34, .T. ) ;
#57 = PLANE ( 'NONE',  #246 ) ;
#58 = VERTEX_POINT ( 'NONE', #220 ) ;
#59 = LINE ( 'NONE', #290, #48 ) ;
#60 = VECTOR ( 'NONE', #245, 1000.000000000000000 ) ;
#61 = PRODUCT_DEFINITION ( 'Î´Öª', '', #95, #309 ) ;
#62 = PRESENTATION_STYLE_ASSIGNMENT (( #1 ) ) ;
#63 = ORIENTED_EDGE ( 'NONE', *, *, #40, .F. ) ;
#64 = FILL_AREA_STYLE ('',( #86 ) ) ;
#65 = VERTEX_POINT ( 'NONE', #244 ) ;
#66 = ADVANCED_FACE ( 'NONE', ( #277 ), #147, .F. ) ;
#67 = EDGE_CURVE ( 'NONE', #300, #69, #324, .T. ) ;
#68 = CARTESIAN_POINT ( 'NONE',  ( 1.217095003755986449, 1.000000000000000000, -0.4072923638155558912 ) ) ;
#69 = VERTEX_POINT ( 'NONE', #328 ) ;
#70 = PLANE ( 'NONE',  #85 ) ;
#71 = CARTESIAN_POINT ( 'NONE',  ( -1.350000000000000089, 0.000000000000000000, -0.5000000000000004441 ) ) ;
#72 = DIRECTION ( 'NONE',  ( 1.000000000000000000, 0.000000000000000000, -0.000000000000000000 ) ) ;
#73 = SURFACE_STYLE_FILL_AREA ( #64 ) ;
#74 = DIRECTION ( 'NONE',  ( 1.000000000000000000, 0.000000000000000000, 0.000000000000000000 ) ) ;
#75 = VECTOR ( 'NONE', #150, 1000.000000000000000 ) ;
#76 = CARTESIAN_POINT ( 'NONE',  ( -1.217095003755984672, 1.000000000000000000, 0.4072923638155558912 ) ) ;
#77 = EDGE_CURVE ( 'NONE', #218, #226, #333, .T. ) ;
#78 = CARTESIAN_POINT ( 'NONE',  ( 1.217095003755986449, 1.000000000000000000, 0.4072923638155558912 ) ) ;
#79 = AXIS2_PLACEMENT_3D ( 'NONE', #281, #174, #114 ) ;
#80 = LINE ( 'NONE', #123, #227 ) ;
#81 = ORIENTED_EDGE ( 'NONE', *, *, #117, .T. ) ;
#82 = SURFACE_SIDE_STYLE ('',( #314 ) ) ;
#83 = VERTEX_POINT ( 'NONE', #47 ) ;
#84 = LINE ( 'NONE', #29, #75 ) ;
#85 = AXIS2_PLACEMENT_3D ( 'NONE', #293, #214, #193 ) ;
#86 = FILL_AREA_STYLE_COLOUR ( '', #9 ) ;
#87 = ORIENTED_EDGE ( 'NONE', *, *, #130, .T. ) ;
#88 = CARTESIAN_POINT ( 'NONE',  ( -1.217095003755984672, 0.000000000000000000, 0.4072923638155558912 ) ) ;
#89 = VECTOR ( 'NONE', #204, 1000.000000000000000 ) ;
#90 = ORIENTED_EDGE ( 'NONE', *, *, #268, .F. ) ;
#91 = DIRECTION ( 'NONE',  ( -1.000000000000000000, 0.000000000000000000, -0.000000000000000000 ) ) ;
#92 = LINE ( 'NONE', #68, #152 ) ;
#93 = LINE ( 'NONE', #88, #317 ) ;
#94 = MECHANICAL_DESIGN_GEOMETRIC_PRESENTATION_REPRESENTATION (  '', ( #253 ), #216 ) ;
#95 = PRODUCT_DEFINITION_FORMATION_WITH_SPECIFIED_SOURCE ( 'ÈÎºÎ', '', #319, .NOT_KNOWN. ) ;
#96 = EDGE_CURVE ( 'NONE', #226, #111, #19, .T. ) ;
#97 = DIRECTION ( 'NONE',  ( 0.000000000000000000, 0.000000000000000000, -1.000000000000000000 ) ) ;
#98 = FACE_BOUND ( 'NONE', #242, .T. ) ;
#99 = DIRECTION ( 'NONE',  ( 1.000000000000000000, 0.000000000000000000, 0.000000000000000000 ) ) ;
#100 = PLANE ( 'NONE',  #241 ) ;
#101 = PRODUCT_RELATED_PRODUCT_CATEGORY ( 'part', '', ( #319 ) ) ;
#102 = LINE ( 'NONE', #224, #337 ) ;
#103 = ORIENTED_EDGE ( 'NONE', *, *, #282, .T. ) ;
#104 = DIRECTION ( 'NONE',  ( 0.000000000000000000, 0.000000000000000000, 1.000000000000000000 ) ) ;
#105 = EDGE_CURVE ( 'NONE', #69, #35, #335, .T. ) ;
#106 = DIRECTION ( 'NONE',  ( 0.000000000000000000, 0.000000000000000000, -1.000000000000000000 ) ) ;
#107 = ORIENTED_EDGE ( 'NONE', *, *, #331, .F. ) ;
#108 =( NAMED_UNIT ( * ) SI_UNIT ( $, .STERADIAN. ) SOLID_ANGLE_UNIT ( ) );
#109 = EDGE_CURVE ( 'NONE', #255, #83, #170, .T. ) ;
#110 =( GEOMETRIC_REPRESENTATION_CONTEXT ( 3 ) GLOBAL_UNCERTAINTY_ASSIGNED_CONTEXT ( ( #252 ) ) GLOBAL_UNIT_ASSIGNED_CONTEXT ( ( #202, #285, #121 ) ) REPRESENTATION_CONTEXT ( 'NONE', 'WORKASPACE' ) );
#111 = VERTEX_POINT ( 'NONE', #275 ) ;
#112 = ORIENTED_EDGE ( 'NONE', *, *, #67, .F. ) ;
#113 = DIRECTION ( 'NONE',  ( 1.000000000000000000, -0.000000000000000000, 0.000000000000000000 ) ) ;
#114 = DIRECTION ( 'NONE',  ( 0.000000000000000000, 0.000000000000000000, -1.000000000000000000 ) ) ;
#115 = STYLED_ITEM ( 'NONE', ( #62 ), #229 ) ;
#116 = ORIENTED_EDGE ( 'NONE', *, *, #325, .F. ) ;
#117 = EDGE_CURVE ( 'NONE', #218, #23, #49, .T. ) ;
#118 = CARTESIAN_POINT ( 'NONE',  ( 1.217095003755986449, 0.000000000000000000, 0.4072923638155558912 ) ) ;
#119 = CARTESIAN_POINT ( 'NONE',  ( -1.350000000000000089, 1.000000000000000000, -0.5000000000000004441 ) ) ;
#120 = ORIENTED_EDGE ( 'NONE', *, *, #77, .F. ) ;
#121 =( NAMED_UNIT ( * ) SI_UNIT ( $, .STERADIAN. ) SOLID_ANGLE_UNIT ( ) );
#122 = EDGE_LOOP ( 'NONE', ( #288, #124, #207, #167 ) ) ;
#123 = CARTESIAN_POINT ( 'NONE',  ( 1.217095003755986449, 0.000000000000000000, -0.4072923638155558912 ) ) ;
#124 = ORIENTED_EDGE ( 'NONE', *, *, #225, .F. ) ;
#125 = DIRECTION ( 'NONE',  ( -1.000000000000000000, 0.000000000000000000, 0.000000000000000000 ) ) ;
#126 = VECTOR ( 'NONE', #308, 1000.000000000000000 ) ;
#127 = ORIENTED_EDGE ( 'NONE', *, *, #331, .T. ) ;
#128 = DIRECTION ( 'NONE',  ( -1.000000000000000000, -0.000000000000000000, -0.000000000000000000 ) ) ;
#129 = VERTEX_POINT ( 'NONE', #195 ) ;
#130 = EDGE_CURVE ( 'NONE', #226, #140, #304, .T. ) ;
#131 = SURFACE_SIDE_STYLE ('',( #73 ) ) ;
#132 = ORIENTED_EDGE ( 'NONE', *, *, #96, .F. ) ;
#133 = LINE ( 'NONE', #243, #15 ) ;
#134 = UNCERTAINTY_MEASURE_WITH_UNIT (LENGTH_MEASURE( 1.000000000000000082E-05 ), #208, 'distance_accuracy_value', 'NONE');
#135 = DIRECTION ( 'NONE',  ( -0.000000000000000000, -1.000000000000000000, -0.000000000000000000 ) ) ;
#136 = CARTESIAN_POINT ( 'NONE',  ( -1.350000000000000089, 1.000000000000000000, 0.5000000000000004441 ) ) ;
#137 = ORIENTED_EDGE ( 'NONE', *, *, #268, .T. ) ;
#138 = DIRECTION ( 'NONE',  ( -1.000000000000000000, 0.000000000000000000, -0.000000000000000000 ) ) ;
#139 = ORIENTED_EDGE ( 'NONE', *, *, #189, .T. ) ;
#140 = VERTEX_POINT ( 'NONE', #51 ) ;
#141 = FACE_OUTER_BOUND ( 'NONE', #151, .T. ) ;
#142 = EDGE_CURVE ( 'NONE', #41, #292, #145, .T. ) ;
#143 = ORIENTED_EDGE ( 'NONE', *, *, #155, .F. ) ;
#144 = CARTESIAN_POINT ( 'NONE',  ( -1.217095003755984672, 1.000000000000000000, -0.4072923638155558912 ) ) ;
#145 = LINE ( 'NONE', #250, #310 ) ;
#146 = UNCERTAINTY_MEASURE_WITH_UNIT (LENGTH_MEASURE( 1.000000000000000082E-05 ), #265, 'distance_accuracy_value', 'NONE');
#147 = PLANE ( 'NONE',  #53 ) ;
#148 = VECTOR ( 'NONE', #217, 1000.000000000000000 ) ;
#149 = CARTESIAN_POINT ( 'NONE',  ( -1.350000000000000089, 0.000000000000000000, -0.5000000000000004441 ) ) ;
#150 = DIRECTION ( 'NONE',  ( 0.000000000000000000, 0.000000000000000000, -1.000000000000000000 ) ) ;
#151 = EDGE_LOOP ( 'NONE', ( #316, #269, #90, #259 ) ) ;
#152 = VECTOR ( 'NONE', #272, 1000.000000000000000 ) ;
#153 = CARTESIAN_POINT ( 'NONE',  ( 1.350000000000001643, 1.000000000000000000, 0.5000000000000004441 ) ) ;
#154 = VECTOR ( 'NONE', #10, 1000.000000000000000 ) ;
#155 = EDGE_CURVE ( 'NONE', #292, #129, #26, .T. ) ;
#156 = ADVANCED_FACE ( 'NONE', ( #338 ), #57, .T. ) ;
#157 = CARTESIAN_POINT ( 'NONE',  ( -1.217095003755984672, 1.000000000000000000, 0.4072923638155558912 ) ) ;
#158 = ORIENTED_EDGE ( 'NONE', *, *, #96, .T. ) ;
#159 = ORIENTED_EDGE ( 'NONE', *, *, #298, .T. ) ;
#160 = CARTESIAN_POINT ( 'NONE',  ( -1.350000000000000089, 1.000000000000000000, 0.5000000000000004441 ) ) ;
#161 =( GEOMETRIC_REPRESENTATION_CONTEXT ( 3 ) GLOBAL_UNCERTAINTY_ASSIGNED_CONTEXT ( ( #146 ) ) GLOBAL_UNIT_ASSIGNED_CONTEXT ( ( #265, #184, #108 ) ) REPRESENTATION_CONTEXT ( 'NONE', 'WORKASPACE' ) );
#162 = EDGE_LOOP ( 'NONE', ( #203, #205, #37, #159 ) ) ;
#163 = ADVANCED_BREP_SHAPE_REPRESENTATION ( 'TS-POINT', ( #229, #42 ), #161 ) ;
#164 = EDGE_LOOP ( 'NONE', ( #4, #143, #257, #270 ) ) ;
#165 = ORIENTED_EDGE ( 'NONE', *, *, #198, .F. ) ;
#166 = ADVANCED_FACE ( 'NONE', ( #24 ), #231, .T. ) ;
#167 = ORIENTED_EDGE ( 'NONE', *, *, #263, .T. ) ;
#168 = LINE ( 'NONE', #276, #196 ) ;
#169 = LINE ( 'NONE', #12, #273 ) ;
#170 = LINE ( 'NONE', #118, #60 ) ;
#171 = CARTESIAN_POINT ( 'NONE',  ( 1.217095003755986449, 0.000000000000000000, 0.4072923638155558912 ) ) ;
#172 = ORIENTED_EDGE ( 'NONE', *, *, #264, .F. ) ;
#173 = ADVANCED_FACE ( 'NONE', ( #181 ), #256, .F. ) ;
#174 = DIRECTION ( 'NONE',  ( 1.000000000000000000, -0.000000000000000000, 0.000000000000000000 ) ) ;
#175 = DIRECTION ( 'NONE',  ( -0.000000000000000000, -1.000000000000000000, -0.000000000000000000 ) ) ;
#176 = FILL_AREA_STYLE_COLOUR ( '', #247 ) ;
#177 = DIRECTION ( 'NONE',  ( 1.000000000000000000, 0.000000000000000000, -0.000000000000000000 ) ) ;
#178 = PRODUCT_CONTEXT ( 'NONE', #20, 'mechanical' ) ;
#179 = ORIENTED_EDGE ( 'NONE', *, *, #225, .T. ) ;
#180 = ADVANCED_FACE ( 'NONE', ( #287, #98 ), #100, .F. ) ;
#181 = FACE_OUTER_BOUND ( 'NONE', #164, .T. ) ;
#182 = MECHANICAL_DESIGN_GEOMETRIC_PRESENTATION_REPRESENTATION (  '', ( #115 ), #110 ) ;
#183 = ORIENTED_EDGE ( 'NONE', *, *, #130, .F. ) ;
#184 =( NAMED_UNIT ( * ) PLANE_ANGLE_UNIT ( ) SI_UNIT ( $, .RADIAN. ) );
#185 = FACE_OUTER_BOUND ( 'NONE', #162, .T. ) ;
#186 = CARTESIAN_POINT ( 'NONE',  ( -1.350000000000000089, 1.000000000000000000, 0.5000000000000004441 ) ) ;
#187 = VECTOR ( 'NONE', #215, 1000.000000000000000 ) ;
#188 = CARTESIAN_POINT ( 'NONE',  ( -1.217095003755984672, 0.000000000000000000, -0.4072923638155558912 ) ) ;
#189 = EDGE_CURVE ( 'NONE', #292, #65, #206, .T. ) ;
#190 = CARTESIAN_POINT ( 'NONE',  ( -1.217095003755984672, 1.000000000000000000, 0.4072923638155558912 ) ) ;
#191 = VECTOR ( 'NONE', #175, 1000.000000000000000 ) ;
#192 = ORIENTED_EDGE ( 'NONE', *, *, #117, .F. ) ;
#193 = DIRECTION ( 'NONE',  ( 0.000000000000000000, -0.000000000000000000, -1.000000000000000000 ) ) ;
#194 = CARTESIAN_POINT ( 'NONE',  ( 0.000000000000000000, 0.000000000000000000, 0.000000000000000000 ) ) ;
#195 = CARTESIAN_POINT ( 'NONE',  ( 1.350000000000001643, 0.000000000000000000, -0.5000000000000004441 ) ) ;
#196 = VECTOR ( 'NONE', #236, 1000.000000000000000 ) ;
#197 = DIRECTION ( 'NONE',  ( 0.000000000000000000, -1.000000000000000000, 0.000000000000000000 ) ) ;
#198 = EDGE_CURVE ( 'NONE', #111, #58, #84, .T. ) ;
#199 = DIRECTION ( 'NONE',  ( 0.000000000000000000, 0.000000000000000000, 1.000000000000000000 ) ) ;
#200 = VECTOR ( 'NONE', #258, 1000.000000000000000 ) ;
#201 = VECTOR ( 'NONE', #233, 1000.000000000000000 ) ;
#202 =( LENGTH_UNIT ( ) NAMED_UNIT ( * ) SI_UNIT ( .MILLI., .METRE. ) );
#203 = ORIENTED_EDGE ( 'NONE', *, *, #105, .T. ) ;
#204 = DIRECTION ( 'NONE',  ( -0.000000000000000000, -1.000000000000000000, -0.000000000000000000 ) ) ;
#205 = ORIENTED_EDGE ( 'NONE', *, *, #222, .F. ) ;
#206 = LINE ( 'NONE', #31, #126 ) ;
#207 = ORIENTED_EDGE ( 'NONE', *, *, #198, .T. ) ;
#208 =( LENGTH_UNIT ( ) NAMED_UNIT ( * ) SI_UNIT ( .MILLI., .METRE. ) );
#209 = ORIENTED_EDGE ( 'NONE', *, *, #221, .F. ) ;
#210 = LINE ( 'NONE', #186, #299 ) ;
#211 = ORIENTED_EDGE ( 'NONE', *, *, #282, .F. ) ;
#212 = DIRECTION ( 'NONE',  ( 0.000000000000000000, 0.000000000000000000, -1.000000000000000000 ) ) ;
#213 = EDGE_CURVE ( 'NONE', #129, #300, #228, .T. ) ;
#214 = DIRECTION ( 'NONE',  ( 0.000000000000000000, -1.000000000000000000, 0.000000000000000000 ) ) ;
#215 = DIRECTION ( 'NONE',  ( -0.000000000000000000, -0.000000000000000000, 1.000000000000000000 ) ) ;
#216 =( GEOMETRIC_REPRESENTATION_CONTEXT ( 3 ) GLOBAL_UNCERTAINTY_ASSIGNED_CONTEXT ( ( #134 ) ) GLOBAL_UNIT_ASSIGNED_CONTEXT ( ( #208, #284, #50 ) ) REPRESENTATION_CONTEXT ( 'NONE', 'WORKASPACE' ) );
#217 = DIRECTION ( 'NONE',  ( 1.000000000000000000, -0.000000000000000000, -0.000000000000000000 ) ) ;
#218 = VERTEX_POINT ( 'NONE', #7 ) ;
#219 = CARTESIAN_POINT ( 'NONE',  ( -1.350000000000000089, 0.000000000000000000, 0.5000000000000004441 ) ) ;
#220 = CARTESIAN_POINT ( 'NONE',  ( 1.217095003755986449, 1.000000000000000000, -0.4072923638155558912 ) ) ;
#221 = EDGE_CURVE ( 'NONE', #83, #23, #80, .T. ) ;
#222 = EDGE_CURVE ( 'NONE', #41, #35, #102, .T. ) ;
#223 = FILL_AREA_STYLE ('',( #176 ) ) ;
#224 = CARTESIAN_POINT ( 'NONE',  ( 1.350000000000001643, 1.000000000000000000, 0.5000000000000004441 ) ) ;
#225 = EDGE_CURVE ( 'NONE', #111, #255, #315, .T. ) ;
#226 = VERTEX_POINT ( 'NONE', #157 ) ;
#227 = VECTOR ( 'NONE', #254, 1000.000000000000000 ) ;
#228 = LINE ( 'NONE', #149, #286 ) ;
#229 = MANIFOLD_SOLID_BREP ( 'Í¹Ì¨-À­Éì2', #2 ) ;
#230 = EDGE_LOOP ( 'NONE', ( #116, #320, #112, #22 ) ) ;
#231 = PLANE ( 'NONE',  #27 ) ;
#232 = PRESENTATION_STYLE_ASSIGNMENT (( #296 ) ) ;
#233 = DIRECTION ( 'NONE',  ( -0.000000000000000000, -1.000000000000000000, -0.000000000000000000 ) ) ;
#234 = PRESENTATION_LAYER_ASSIGNMENT (  '', '', ( #253 ) ) ;
#235 = ORIENTED_EDGE ( 'NONE', *, *, #213, .T. ) ;
#236 = DIRECTION ( 'NONE',  ( 1.000000000000000000, -0.000000000000000000, -0.000000000000000000 ) ) ;
#237 = DIRECTION ( 'NONE',  ( 0.000000000000000000, 0.000000000000000000, -1.000000000000000000 ) ) ;
#238 = ORIENTED_EDGE ( 'NONE', *, *, #109, .T. ) ;
#239 = FACE_OUTER_BOUND ( 'NONE', #249, .T. ) ;
#240 = EDGE_CURVE ( 'NONE', #295, #41, #59, .T. ) ;
#241 = AXIS2_PLACEMENT_3D ( 'NONE', #54, #197, #260 ) ;
#242 = EDGE_LOOP ( 'NONE', ( #120, #63, #165, #132 ) ) ;
#243 = CARTESIAN_POINT ( 'NONE',  ( -1.350000000000000089, 1.000000000000000000, 0.5000000000000004441 ) ) ;
#244 = CARTESIAN_POINT ( 'NONE',  ( -1.350000000000000089, 1.000000000000000000, -0.5000000000000004441 ) ) ;
#245 = DIRECTION ( 'NONE',  ( 0.000000000000000000, 0.000000000000000000, -1.000000000000000000 ) ) ;
#246 = AXIS2_PLACEMENT_3D ( 'NONE', #78, #312, #104 ) ;
#247 = COLOUR_RGB ( '',1.000000000000000000, 1.000000000000000000, 1.000000000000000000 ) ;
#248 = DIRECTION ( 'NONE',  ( -0.000000000000000000, -1.000000000000000000, -0.000000000000000000 ) ) ;
#249 = EDGE_LOOP ( 'NONE', ( #211, #183, #158, #179 ) ) ;
#250 = CARTESIAN_POINT ( 'NONE',  ( 1.350000000000001643, 1.000000000000000000, 0.5000000000000004441 ) ) ;
#251 = ADVANCED_FACE ( 'NONE', ( #141 ), #274, .F. ) ;
#252 = UNCERTAINTY_MEASURE_WITH_UNIT (LENGTH_MEASURE( 1.000000000000000082E-05 ), #202, 'distance_accuracy_value', 'NONE');
#253 = STYLED_ITEM ( 'NONE', ( #232 ), #163 ) ;
#254 = DIRECTION ( 'NONE',  ( -1.000000000000000000, 0.000000000000000000, 0.000000000000000000 ) ) ;
#255 = VERTEX_POINT ( 'NONE', #171 ) ;
#256 = PLANE ( 'NONE',  #329 ) ;
#257 = ORIENTED_EDGE ( 'NONE', *, *, #142, .F. ) ;
#258 = DIRECTION ( 'NONE',  ( -0.000000000000000000, -1.000000000000000000, -0.000000000000000000 ) ) ;
#259 = ORIENTED_EDGE ( 'NONE', *, *, #264, .T. ) ;
#260 = DIRECTION ( 'NONE',  ( 0.000000000000000000, -0.000000000000000000, -1.000000000000000000 ) ) ;
#261 = ORIENTED_EDGE ( 'NONE', *, *, #263, .F. ) ;
#262 = DIRECTION ( 'NONE',  ( -0.000000000000000000, -1.000000000000000000, -0.000000000000000000 ) ) ;
#263 = EDGE_CURVE ( 'NONE', #58, #83, #39, .T. ) ;
#264 = EDGE_CURVE ( 'NONE', #65, #300, #36, .T. ) ;
#265 =( LENGTH_UNIT ( ) NAMED_UNIT ( * ) SI_UNIT ( .MILLI., .METRE. ) );
#266 = VECTOR ( 'NONE', #301, 1000.000000000000000 ) ;
#267 = DIRECTION ( 'NONE',  ( -0.000000000000000000, -0.000000000000000000, 1.000000000000000000 ) ) ;
#268 = EDGE_CURVE ( 'NONE', #65, #295, #133, .T. ) ;
#269 = ORIENTED_EDGE ( 'NONE', *, *, #298, .F. ) ;
#270 = ORIENTED_EDGE ( 'NONE', *, *, #222, .T. ) ;
#271 = CARTESIAN_POINT ( 'NONE',  ( 1.350000000000001643, 0.000000000000000000, 0.5000000000000004441 ) ) ;
#272 = DIRECTION ( 'NONE',  ( -1.000000000000000000, 0.000000000000000000, 0.000000000000000000 ) ) ;
#273 = VECTOR ( 'NONE', #106, 1000.000000000000000 ) ;
#274 = PLANE ( 'NONE',  #280 ) ;
#275 = CARTESIAN_POINT ( 'NONE',  ( 1.217095003755986449, 1.000000000000000000, 0.4072923638155558912 ) ) ;
#276 = CARTESIAN_POINT ( 'NONE',  ( 1.217095003755986449, 0.000000000000000000, 0.4072923638155558912 ) ) ;
#277 = FACE_OUTER_BOUND ( 'NONE', #6, .T. ) ;
#278 = CARTESIAN_POINT ( 'NONE',  ( -1.350000000000000089, 1.000000000000000000, 0.5000000000000004441 ) ) ;
#279 = CARTESIAN_POINT ( 'NONE',  ( -1.350000000000000089, 0.000000000000000000, 0.5000000000000004441 ) ) ;
#280 = AXIS2_PLACEMENT_3D ( 'NONE', #160, #113, #44 ) ;
#281 = CARTESIAN_POINT ( 'NONE',  ( -1.217095003755984672, 1.000000000000000000, 0.4072923638155558912 ) ) ;
#282 = EDGE_CURVE ( 'NONE', #140, #255, #168, .T. ) ;
#283 = APPLICATION_PROTOCOL_DEFINITION ( 'draft international standard', 'automotive_design', 1998, #45 ) ;
#284 =( NAMED_UNIT ( * ) PLANE_ANGLE_UNIT ( ) SI_UNIT ( $, .RADIAN. ) );
#285 =( NAMED_UNIT ( * ) PLANE_ANGLE_UNIT ( ) SI_UNIT ( $, .RADIAN. ) );
#286 = VECTOR ( 'NONE', #128, 1000.000000000000000 ) ;
#287 = FACE_OUTER_BOUND ( 'NONE', #313, .T. ) ;
#288 = ORIENTED_EDGE ( 'NONE', *, *, #109, .F. ) ;
#289 = CARTESIAN_POINT ( 'NONE',  ( 1.217095003755986449, 1.000000000000000000, -0.4072923638155558912 ) ) ;
#290 = CARTESIAN_POINT ( 'NONE',  ( -1.350000000000000089, 1.000000000000000000, 0.5000000000000004441 ) ) ;
#291 = ADVANCED_FACE ( 'NONE', ( #17, #46 ), #70, .T. ) ;
#292 = VERTEX_POINT ( 'NONE', #326 ) ;
#293 = CARTESIAN_POINT ( 'NONE',  ( 0.000000000000000000, 0.000000000000000000, 0.000000000000000000 ) ) ;
#294 = FACE_OUTER_BOUND ( 'NONE', #11, .T. ) ;
#295 = VERTEX_POINT ( 'NONE', #278 ) ;
#296 = SURFACE_STYLE_USAGE ( .BOTH. , #131 ) ;
#297 = PLANE ( 'NONE',  #305 ) ;
#298 = EDGE_CURVE ( 'NONE', #295, #69, #210, .T. ) ;
#299 = VECTOR ( 'NONE', #135, 1000.000000000000000 ) ;
#300 = VERTEX_POINT ( 'NONE', #71 ) ;
#301 = DIRECTION ( 'NONE',  ( -0.000000000000000000, -0.000000000000000000, 1.000000000000000000 ) ) ;
#302 = CARTESIAN_POINT ( 'NONE',  ( 1.217095003755986449, 1.000000000000000000, 0.4072923638155558912 ) ) ;
#303 = DIRECTION ( 'NONE',  ( 0.000000000000000000, 0.000000000000000000, 1.000000000000000000 ) ) ;
#304 = LINE ( 'NONE', #76, #191 ) ;
#305 = AXIS2_PLACEMENT_3D ( 'NONE', #136, #237, #138 ) ;
#306 = CARTESIAN_POINT ( 'NONE',  ( 1.217095003755986449, 1.000000000000000000, 0.4072923638155558912 ) ) ;
#307 = ORIENTED_EDGE ( 'NONE', *, *, #155, .T. ) ;
#308 = DIRECTION ( 'NONE',  ( -1.000000000000000000, -0.000000000000000000, -0.000000000000000000 ) ) ;
#309 = PRODUCT_DEFINITION_CONTEXT ( 'detailed design', #45, 'design' ) ;
#310 = VECTOR ( 'NONE', #97, 1000.000000000000000 ) ;
#311 = ORIENTED_EDGE ( 'NONE', *, *, #240, .T. ) ;
#312 = DIRECTION ( 'NONE',  ( -1.000000000000000000, 0.000000000000000000, 0.000000000000000000 ) ) ;
#313 = EDGE_LOOP ( 'NONE', ( #32, #139, #137, #311 ) ) ;
#314 = SURFACE_STYLE_FILL_AREA ( #223 ) ;
#315 = LINE ( 'NONE', #306, #89 ) ;
#316 = ORIENTED_EDGE ( 'NONE', *, *, #67, .T. ) ;
#317 = VECTOR ( 'NONE', #321, 1000.000000000000000 ) ;
#318 = CARTESIAN_POINT ( 'NONE',  ( -1.350000000000000089, 1.000000000000000000, -0.5000000000000004441 ) ) ;
#319 = PRODUCT ( 'TS-POINT', 'TS-POINT', '', ( #178 ) ) ;
#320 = ORIENTED_EDGE ( 'NONE', *, *, #105, .F. ) ;
#321 = DIRECTION ( 'NONE',  ( -0.000000000000000000, -0.000000000000000000, 1.000000000000000000 ) ) ;
#322 = ORIENTED_EDGE ( 'NONE', *, *, #77, .T. ) ;
#323 = DIRECTION ( 'NONE',  ( 1.000000000000000000, 0.000000000000000000, 0.000000000000000000 ) ) ;
#324 = LINE ( 'NONE', #279, #187 ) ;
#325 = EDGE_CURVE ( 'NONE', #35, #129, #169, .T. ) ;
#326 = CARTESIAN_POINT ( 'NONE',  ( 1.350000000000001643, 1.000000000000000000, -0.5000000000000004441 ) ) ;
#327 = AXIS2_PLACEMENT_3D ( 'NONE', #14, #212, #91 ) ;
#328 = CARTESIAN_POINT ( 'NONE',  ( -1.350000000000000089, 0.000000000000000000, 0.5000000000000004441 ) ) ;
#329 = AXIS2_PLACEMENT_3D ( 'NONE', #153, #125, #199 ) ;
#330 = APPLICATION_PROTOCOL_DEFINITION ( 'draft international standard', 'automotive_design', 1998, #20 ) ;
#331 = EDGE_CURVE ( 'NONE', #23, #140, #93, .T. ) ;
#332 = SHAPE_DEFINITION_REPRESENTATION ( #38, #163 ) ;
#333 = LINE ( 'NONE', #190, #266 ) ;
#334 = DIRECTION ( 'NONE',  ( 0.000000000000000000, 0.000000000000000000, 1.000000000000000000 ) ) ;
#335 = LINE ( 'NONE', #219, #8 ) ;
#336 = VECTOR ( 'NONE', #248, 1000.000000000000000 ) ;
#337 = VECTOR ( 'NONE', #262, 1000.000000000000000 ) ;
#338 = FACE_OUTER_BOUND ( 'NONE', #122, .T. ) ;
ENDSEC;
END-ISO-10303-21;
